Make your own free website on Tripod.com

 

 

 

ALICIA (expulsada al país de las maravillas)

============================================

(transcrita por Ricardo Leal y Angel Cozar Segovia)

 

[C]

Alicia sortilegio de babia

[G]

en el fondo del espejo

[Em]

alicia ni supone ni piensa

[Am]

con la luna por cerebro.

 

[C]

Alicia en su pensamiento

[G]

tirando del hilo de su enredo

[Em]

Alicia en el laberinto

[Am]

sin minotauro me llama: teseo!

 

[F]

Alicia es siempre tan breve

[Am]

que ya ha terminado

[F]

Alicia dice que te quiere

[Am]

cuando ya te ha abandonado

 

 

[D]

Alicia expulsada

[F#m]

al pais de las maravillas

[Bm]

para alicia hoy

[E]

es siempre todavia

 

[C]

Alicia viajando entre lunas,

[G]

de charla con musarañas,

[Em]

alicia tejiendo las nubes

[Am]

con tela que nunca se acaba

 

[F]

Alicia es siempre tan breve

[Am]

que ya ha terminado

[F]

Alicia dice que te quiere

[Am]

cuando ya te ha abandonado

 

 

[D]

Alicia expulsada

[F#m]

al pais de las maravillas

[Bm]

para alicia hoy

[E]

es siempre todavia

 

 

[D]

Alicia expulsada

[F#m]

al pais de las maravillas

 

[D]

Alicia expulsada

[F#m]

al pais de las maravillas

[D] [F#m] [Bm] [E] [E7]

aaaaaaaahhh!! uuuuuuuhhh!! uuuuuuuhhh!!

 

donde [E7]

E|---|---|---|---|---|---|---|---//

B|---|---|---|---|-X-|---|---|---//

G|---|---|---|---|---|---|-X-|---//

D|---|---|---|---|---|-X-|---|---//

A|---|---|---|---|---|---|-X-|---//

E|---|---|---|---|---|---|---|---//

 

| C | G | Em | Am | F | D | F# | Bm |

|===================================|

e|-0-|-3-|-0--|-0--|-1-|-2-|-2--|-2--|

B|-1-|-3-|-0--|-1--|-1-|-3-|-2--|-3--|

G|-0-|-0-|-0--|-2--|-2-|-2-|-2--|-4--|

D|-2-|-0-|-2--|-2--|-3-|-0-|-4--|-4--|

A|-3-|-2-|-2--|-0--|-3-|-0-|-4--|-2--|

E|-x-|-3-|-0--|-0--|-1-|-x-|-2--|-2--|

 

 

Aquí va el sólo de la mitad de la canción transcrito por ANGEL.

Se toca solo en la segunda y tercera cuerda:

 

Cuerda

2 : -----5-------5-----8------|-----5---6-5--|-----5-----|-----------

3 : -4^5----4^5-----5-----5^7-|-4^5---5------|--4^5--5-4-|-4^5^4------

 

2 : -----5-------5-----6-5--|-----5---6-5-|-----5-----|----------------

3 : -4^5----4^5----5--------|-4^5---5-----|-4^5---5-4-|-4-5-4--4-7-5-4-

 

 

El simbolo ese ^ quiere decir notas ligadas.

Recomiendo que para alargar el sonido como en la canción, se hagan

vibratos (o como se diga) en las notas que veáis que lo requieren.

El enlace que aparecía en el Básico de los 40 pero que no aparece

en el original es la última porción de cada párrafo (esas en las que

sólo toca en la tercera cuerda). Si no entiendéis algo decírmelo.